ISO-10303-21;
HEADER;
FILE_DESCRIPTION (( 'STEP AP203' ),
    '1' );
FILE_NAME ('MQWP-25.4-1550.STEP',
    '2020-12-22T09:29:35',
    ( '' ),
    ( '' ),
    'SwSTEP 2.0',
    'SolidWorks 2020',
    '' );
FILE_SCHEMA (( 'CONFIG_CONTROL_DESIGN' ));
ENDSEC;

DATA;
#1 = SHAPE_DEFINITION_REPRESENTATION ( #7, #77 ) ;
#2 = PRODUCT_DEFINITION_FORMATION_WITH_SPECIFIED_SOURCE ( 'ANY', '', #59, .NOT_KNOWN. ) ;
#3 = APPLICATION_PROTOCOL_DEFINITION ( 'international standard', 'config_control_design', 1994, #54 ) ;
#4 = CALENDAR_DATE ( 2020, 22, 12 ) ;
#5 = ADVANCED_FACE ( 'NONE', ( #160 ), #158, .F. ) ;
#6 = PLANE ( 'NONE',  #129 ) ;
#7 = PRODUCT_DEFINITION_SHAPE ( 'NONE', 'NONE',  #111 ) ;
#8 = CC_DESIGN_APPROVAL ( #52, ( #125 ) ) ;
#9 = CARTESIAN_POINT ( 'NONE',  ( 0.9999999999999995559, 3.673940397442059868E-16, -3.000000000000000000 ) ) ;
#10 = CC_DESIGN_PERSON_AND_ORGANIZATION_ASSIGNMENT ( #35, #86, ( #125 ) ) ;
#11 = CYLINDRICAL_SURFACE ( 'NONE', #108, 3.000000000000000000 ) ;
#12 = ORIENTED_EDGE ( 'NONE', *, *, #153, .F. ) ;
#13 = DIRECTION ( 'NONE',  ( 0.000000000000000000, 0.000000000000000000, 1.000000000000000000 ) ) ;
#14 = AXIS2_PLACEMENT_3D ( 'NONE', #71, #169, #51 ) ;
#15 = ADVANCED_FACE ( 'NONE', ( #55 ), #6, .F. ) ;
#16 = DESIGN_CONTEXT ( 'detailed design', #95, 'design' ) ;
#17 = PERSON_AND_ORGANIZATION ( #56, #84 ) ;
#18 = CC_DESIGN_SECURITY_CLASSIFICATION ( #125, ( #2 ) ) ;
#19 = DATE_AND_TIME ( #140, #106 ) ;
#20 = APPROVAL_STATUS ( 'not_yet_approved' ) ;
#21 = CALENDAR_DATE ( 2020, 22, 12 ) ;
#22 = ADVANCED_FACE ( 'NONE', ( #149 ), #11, .T. ) ;
#23 = CARTESIAN_POINT ( 'NONE',  ( 0.000000000000000000, 3.673940397442059868E-16, -3.000000000000000000 ) ) ;
#24 = CARTESIAN_POINT ( 'NONE',  ( 0.9999999999999995559, 0.000000000000000000, 0.000000000000000000 ) ) ;
#25 = ORIENTED_EDGE ( 'NONE', *, *, #63, .T. ) ;
#26 = LOCAL_TIME ( 17, 29, 35.00000000000000000, #143 ) ;
#27 = EDGE_LOOP ( 'NONE', ( #135, #57 ) ) ;
#28 = CC_DESIGN_DATE_AND_TIME_ASSIGNMENT ( #174, #64, ( #125 ) ) ;
#29 = DIRECTION ( 'NONE',  ( -1.000000000000000000, -0.000000000000000000, -0.000000000000000000 ) ) ;
#30 = VERTEX_POINT ( 'NONE', #72 ) ;
#31 = EDGE_LOOP ( 'NONE', ( #12, #173, #83, #119 ) ) ;
#32 = COORDINATED_UNIVERSAL_TIME_OFFSET ( 8, 0, .AHEAD. ) ;
#33 = APPROVAL_STATUS ( 'not_yet_approved' ) ;
#34 = APPROVAL ( #175, 'UNSPECIFIED' ) ;
#35 = PERSON_AND_ORGANIZATION ( #56, #84 ) ;
#36 = CARTESIAN_POINT ( 'NONE',  ( 0.000000000000000000, 0.000000000000000000, 0.000000000000000000 ) ) ;
#37 = EDGE_CURVE ( 'NONE', #137, #170, #70, .T. ) ;
#38 =( LENGTH_UNIT ( ) NAMED_UNIT ( * ) SI_UNIT ( .MILLI., .METRE. ) );
#39 = CARTESIAN_POINT ( 'NONE',  ( 1.224646799147353454E-16, 3.000000000000000000, 0.000000000000000000 ) ) ;
#40 = CARTESIAN_POINT ( 'NONE',  ( 0.000000000000000000, 0.000000000000000000, 0.000000000000000000 ) ) ;
#41 = ADVANCED_FACE ( 'NONE', ( #50 ), #104, .T. ) ;
#42 = DIRECTION ( 'NONE',  ( -1.000000000000000000, -0.000000000000000000, -0.000000000000000000 ) ) ;
#43 = CIRCLE ( 'NONE', #14, 3.000000000000000000 ) ;
#44 = PERSON_AND_ORGANIZATION ( #56, #84 ) ;
#45 = DIRECTION ( 'NONE',  ( 1.000000000000000000, 0.000000000000000000, 0.000000000000000000 ) ) ;
#46 = AXIS2_PLACEMENT_3D ( 'NONE', #40, #157, #120 ) ;
#47 =( NAMED_UNIT ( * ) SI_UNIT ( $, .STERADIAN. ) SOLID_ANGLE_UNIT ( ) );
#48 = APPROVAL_ROLE ( '' ) ;
#49 = PERSON_AND_ORGANIZATION_ROLE ( 'creator' ) ;
#50 = FACE_OUTER_BOUND ( 'NONE', #60, .T. ) ;
#51 = DIRECTION ( 'NONE',  ( 0.000000000000000000, 0.000000000000000000, 1.000000000000000000 ) ) ;
#52 = APPROVAL ( #33, 'UNSPECIFIED' ) ;
#53 = CIRCLE ( 'NONE', #155, 3.000000000000000000 ) ;
#54 = APPLICATION_CONTEXT ( 'configuration controlled 3d designs of mechanical parts and assemblies' ) ;
#55 = FACE_OUTER_BOUND ( 'NONE', #27, .T. ) ;
#56 = PERSON ( 'UNSPECIFIED', 'UNSPECIFIED', 'UNSPECIFIED', ('UNSPECIFIED'), ('UNSPECIFIED'), ('UNSPECIFIED') ) ;
#57 = ORIENTED_EDGE ( 'NONE', *, *, #37, .F. ) ;
#58 = VERTEX_POINT ( 'NONE', #93 ) ;
#59 = PRODUCT ( 'MQWP-25.4-1550', 'MQWP-25.4-1550', '', ( #68 ) ) ;
#60 = EDGE_LOOP ( 'NONE', ( #25, #110, #74, #150 ) ) ;
#61 = LOCAL_TIME ( 17, 29, 35.00000000000000000, #65 ) ;
#62 = VECTOR ( 'NONE', #136, 1000.000000000000000 ) ;
#63 = EDGE_CURVE ( 'NONE', #170, #137, #53, .T. ) ;
#64 = DATE_TIME_ROLE ( 'classification_date' ) ;
#65 = COORDINATED_UNIVERSAL_TIME_OFFSET ( 8, 0, .AHEAD. ) ;
#66 =( NAMED_UNIT ( * ) PLANE_ANGLE_UNIT ( ) SI_UNIT ( $, .RADIAN. ) );
#67 = LOCAL_TIME ( 17, 29, 35.00000000000000000, #32 ) ;
#68 = MECHANICAL_CONTEXT ( 'NONE', #54, 'mechanical' ) ;
#69 = DIRECTION ( 'NONE',  ( -1.000000000000000000, 0.000000000000000000, -0.000000000000000000 ) ) ;
#70 = CIRCLE ( 'NONE', #134, 3.000000000000000000 ) ;
#71 = CARTESIAN_POINT ( 'NONE',  ( 2.449293598294706907E-16, 0.000000000000000000, 0.000000000000000000 ) ) ;
#72 = CARTESIAN_POINT ( 'NONE',  ( 2.449293598294706907E-16, 3.673940397442059868E-16, -3.000000000000000000 ) ) ;
#73 = CARTESIAN_POINT ( 'NONE',  ( 0.9999999999999995559, 0.000000000000000000, 3.000000000000000000 ) ) ;
#74 = ORIENTED_EDGE ( 'NONE', *, *, #142, .F. ) ;
#75 = CC_DESIGN_PERSON_AND_ORGANIZATION_ASSIGNMENT ( #156, #152, ( #2 ) ) ;
#76 = UNCERTAINTY_MEASURE_WITH_UNIT (LENGTH_MEASURE( 1.000000000000000082E-05 ), #38, 'distance_accuracy_value', 'NONE');
#77 = ADVANCED_BREP_SHAPE_REPRESENTATION ( 'MQWP-25.4-1550', ( #122, #96 ), #151 ) ;
#78 = PERSON_AND_ORGANIZATION_ROLE ( 'design_owner' ) ;
#79 = PERSON_AND_ORGANIZATION_ROLE ( 'creator' ) ;
#80 = DATE_TIME_ROLE ( 'creation_date' ) ;
#81 = LINE ( 'NONE', #23, #62 ) ;
#82 = DIRECTION ( 'NONE',  ( 0.000000000000000000, 0.000000000000000000, 1.000000000000000000 ) ) ;
#83 = ORIENTED_EDGE ( 'NONE', *, *, #101, .T. ) ;
#84 = ORGANIZATION ( 'UNSPECIFIED', 'UNSPECIFIED', '' ) ;
#85 = DIRECTION ( 'NONE',  ( 0.000000000000000000, 0.000000000000000000, -1.000000000000000000 ) ) ;
#86 = PERSON_AND_ORGANIZATION_ROLE ( 'classification_officer' ) ;
#87 = CIRCLE ( 'NONE', #124, 3.000000000000000000 ) ;
#88 = APPROVAL_ROLE ( '' ) ;
#89 = COORDINATED_UNIVERSAL_TIME_OFFSET ( 8, 0, .AHEAD. ) ;
#90 = DATE_AND_TIME ( #164, #67 ) ;
#91 = DIRECTION ( 'NONE',  ( -1.000000000000000000, -0.000000000000000000, -0.000000000000000000 ) ) ;
#92 = CC_DESIGN_PERSON_AND_ORGANIZATION_ASSIGNMENT ( #165, #49, ( #2 ) ) ;
#93 = CARTESIAN_POINT ( 'NONE',  ( 2.449293598294706907E-16, 0.000000000000000000, 3.000000000000000000 ) ) ;
#94 = DIRECTION ( 'NONE',  ( -1.000000000000000000, -0.000000000000000000, -0.000000000000000000 ) ) ;
#95 = APPLICATION_CONTEXT ( 'configuration controlled 3d designs of mechanical parts and assemblies' ) ;
#96 = AXIS2_PLACEMENT_3D ( 'NONE', #36, #103, #45 ) ;
#97 = DIRECTION ( 'NONE',  ( 1.000000000000000000, 0.000000000000000000, 0.000000000000000000 ) ) ;
#98 = EDGE_LOOP ( 'NONE', ( #123, #109 ) ) ;
#99 = APPROVAL_PERSON_ORGANIZATION ( #162, #34, #48 ) ;
#100 = DATE_AND_TIME ( #130, #26 ) ;
#101 = EDGE_CURVE ( 'NONE', #170, #58, #132, .T. ) ;
#102 = PERSON_AND_ORGANIZATION ( #56, #84 ) ;
#103 = DIRECTION ( 'NONE',  ( 0.000000000000000000, 0.000000000000000000, 1.000000000000000000 ) ) ;
#104 = CYLINDRICAL_SURFACE ( 'NONE', #46, 3.000000000000000000 ) ;
#105 = DIRECTION ( 'NONE',  ( -0.000000000000000000, 0.000000000000000000, 1.000000000000000000 ) ) ;
#106 = LOCAL_TIME ( 17, 29, 35.00000000000000000, #89 ) ;
#107 = CARTESIAN_POINT ( 'NONE',  ( 2.449293598294706907E-16, 0.000000000000000000, 0.000000000000000000 ) ) ;
#108 = AXIS2_PLACEMENT_3D ( 'NONE', #145, #91, #168 ) ;
#109 = ORIENTED_EDGE ( 'NONE', *, *, #159, .T. ) ;
#110 = ORIENTED_EDGE ( 'NONE', *, *, #153, .T. ) ;
#111 = PRODUCT_DEFINITION ( 'UNKNOWN', '', #2, #16 ) ;
#112 = CLOSED_SHELL ( 'NONE', ( #41, #22, #15, #5 ) ) ;
#113 = APPROVAL_ROLE ( '' ) ;
#114 = APPROVAL ( #20, 'UNSPECIFIED' ) ;
#115 = DATE_AND_TIME ( #4, #61 ) ;
#116 = CARTESIAN_POINT ( 'NONE',  ( 0.9999999999999995559, 0.000000000000000000, 0.000000000000000000 ) ) ;
#117 = CARTESIAN_POINT ( 'NONE',  ( 0.000000000000000000, 0.000000000000000000, 3.000000000000000000 ) ) ;
#118 = APPROVAL_PERSON_ORGANIZATION ( #44, #52, #88 ) ;
#119 = ORIENTED_EDGE ( 'NONE', *, *, #159, .F. ) ;
#120 = DIRECTION ( 'NONE',  ( 0.000000000000000000, 0.000000000000000000, 1.000000000000000000 ) ) ;
#121 = CC_DESIGN_PERSON_AND_ORGANIZATION_ASSIGNMENT ( #128, #78, ( #59 ) ) ;
#122 = MANIFOLD_SOLID_BREP ( 'Ðý×', #112 ) ;
#123 = ORIENTED_EDGE ( 'NONE', *, *, #142, .T. ) ;
#124 = AXIS2_PLACEMENT_3D ( 'NONE', #107, #42, #13 ) ;
#125 = SECURITY_CLASSIFICATION ( '', '', #163 ) ;
#126 = APPLICATION_PROTOCOL_DEFINITION ( 'international standard', 'config_control_design', 1994, #95 ) ;
#127 = CC_DESIGN_PERSON_AND_ORGANIZATION_ASSIGNMENT ( #102, #79, ( #111 ) ) ;
#128 = PERSON_AND_ORGANIZATION ( #56, #84 ) ;
#129 = AXIS2_PLACEMENT_3D ( 'NONE', #146, #69, #105 ) ;
#130 = CALENDAR_DATE ( 2020, 22, 12 ) ;
#131 = APPROVAL_DATE_TIME ( #90, #114 ) ;
#132 = LINE ( 'NONE', #117, #148 ) ;
#133 = CC_DESIGN_DATE_AND_TIME_ASSIGNMENT ( #100, #80, ( #111 ) ) ;
#134 = AXIS2_PLACEMENT_3D ( 'NONE', #116, #29, #171 ) ;
#135 = ORIENTED_EDGE ( 'NONE', *, *, #63, .F. ) ;
#136 = DIRECTION ( 'NONE',  ( -1.000000000000000000, -0.000000000000000000, -0.000000000000000000 ) ) ;
#137 = VERTEX_POINT ( 'NONE', #9 ) ;
#138 = COORDINATED_UNIVERSAL_TIME_OFFSET ( 8, 0, .AHEAD. ) ;
#139 = APPROVAL_PERSON_ORGANIZATION ( #17, #114, #113 ) ;
#140 = CALENDAR_DATE ( 2020, 22, 12 ) ;
#141 = APPROVAL_DATE_TIME ( #19, #52 ) ;
#142 = EDGE_CURVE ( 'NONE', #58, #30, #43, .T. ) ;
#143 = COORDINATED_UNIVERSAL_TIME_OFFSET ( 8, 0, .AHEAD. ) ;
#144 = DIRECTION ( 'NONE',  ( -1.000000000000000000, -0.000000000000000000, -0.000000000000000000 ) ) ;
#145 = CARTESIAN_POINT ( 'NONE',  ( 0.000000000000000000, 0.000000000000000000, 0.000000000000000000 ) ) ;
#146 = CARTESIAN_POINT ( 'NONE',  ( 0.9999999999999997780, 3.000000000000000000, 0.000000000000000000 ) ) ;
#147 = CC_DESIGN_APPROVAL ( #34, ( #2 ) ) ;
#148 = VECTOR ( 'NONE', #94, 1000.000000000000000 ) ;
#149 = FACE_OUTER_BOUND ( 'NONE', #31, .T. ) ;
#150 = ORIENTED_EDGE ( 'NONE', *, *, #101, .F. ) ;
#151 =( GEOMETRIC_REPRESENTATION_CONTEXT ( 3 ) GLOBAL_UNCERTAINTY_ASSIGNED_CONTEXT ( ( #76 ) ) GLOBAL_UNIT_ASSIGNED_CONTEXT ( ( #38, #66, #47 ) ) REPRESENTATION_CONTEXT ( 'NONE', 'WORKASPACE' ) );
#152 = PERSON_AND_ORGANIZATION_ROLE ( 'design_supplier' ) ;
#153 = EDGE_CURVE ( 'NONE', #137, #30, #81, .T. ) ;
#154 = APPROVAL_DATE_TIME ( #115, #34 ) ;
#155 = AXIS2_PLACEMENT_3D ( 'NONE', #24, #144, #82 ) ;
#156 = PERSON_AND_ORGANIZATION ( #56, #84 ) ;
#157 = DIRECTION ( 'NONE',  ( -1.000000000000000000, -0.000000000000000000, -0.000000000000000000 ) ) ;
#158 = PLANE ( 'NONE',  #161 ) ;
#159 = EDGE_CURVE ( 'NONE', #30, #58, #87, .T. ) ;
#160 = FACE_OUTER_BOUND ( 'NONE', #98, .T. ) ;
#161 = AXIS2_PLACEMENT_3D ( 'NONE', #39, #97, #85 ) ;
#162 = PERSON_AND_ORGANIZATION ( #56, #84 ) ;
#163 = SECURITY_CLASSIFICATION_LEVEL ( 'unclassified' ) ;
#164 = CALENDAR_DATE ( 2020, 22, 12 ) ;
#165 = PERSON_AND_ORGANIZATION ( #56, #84 ) ;
#166 = LOCAL_TIME ( 17, 29, 35.00000000000000000, #138 ) ;
#167 = PRODUCT_RELATED_PRODUCT_CATEGORY ( 'detail', '', ( #59 ) ) ;
#168 = DIRECTION ( 'NONE',  ( 0.000000000000000000, 0.000000000000000000, 1.000000000000000000 ) ) ;
#169 = DIRECTION ( 'NONE',  ( -1.000000000000000000, -0.000000000000000000, -0.000000000000000000 ) ) ;
#170 = VERTEX_POINT ( 'NONE', #73 ) ;
#171 = DIRECTION ( 'NONE',  ( 0.000000000000000000, 0.000000000000000000, 1.000000000000000000 ) ) ;
#172 = CC_DESIGN_APPROVAL ( #114, ( #111 ) ) ;
#173 = ORIENTED_EDGE ( 'NONE', *, *, #37, .T. ) ;
#174 = DATE_AND_TIME ( #21, #166 ) ;
#175 = APPROVAL_STATUS ( 'not_yet_approved' ) ;
ENDSEC;
END-ISO-10303-21;
